ISO-10303-21;
HEADER;
FILE_DESCRIPTION (( 'STEP AP214' ),
    '1' );
FILE_NAME ('TripodTopBase.STEP',
    '2015-06-11T08:29:03',
    ( '' ),
    ( '' ),
    'SwSTEP 2.0',
    'SolidWorks 2014',
    '' );
FILE_SCHEMA (( 'AUTOMOTIVE_DESIGN' ));
ENDSEC;

DATA;
#1 = FILL_AREA_STYLE ('',( #342 ) ) ;
#2 = EDGE_CURVE ( 'NONE', #336, #239, #282, .T. ) ;
#3 = CARTESIAN_POINT ( 'NONE',  ( 83.64343891910017700, -15.12531407233476300, 0.0000000000000000000 ) ) ;
#4 = EDGE_CURVE ( 'NONE', #363, #336, #93, .T. ) ;
#5 = ADVANCED_FACE ( 'NONE', ( #174 ), #343, .F. ) ;
#6 = EDGE_CURVE ( 'NONE', #363, #149, #208, .T. ) ;
#7 = EDGE_CURVE ( 'NONE', #149, #239, #171, .T. ) ;
#8 = EDGE_CURVE ( 'NONE', #222, #260, #300, .T. ) ;
#9 = DIRECTION ( 'NONE',  ( -0.0000000000000000000, -0.0000000000000000000, -1.000000000000000000 ) ) ;
#10 = CARTESIAN_POINT ( 'NONE',  ( -85.00000000000001400, 0.0000000000000000000, 12.00000000000000000 ) ) ;
#11 = PRODUCT_DEFINITION_CONTEXT ( 'detailed design', #288, 'design' ) ;
#12 = EDGE_CURVE ( 'NONE', #217, #239, #91, .T. ) ;
#13 = EDGE_CURVE ( 'NONE', #217, #250, #193, .T. ) ;
#14 = VERTEX_POINT ( 'NONE', #120 ) ;
#15 = DIRECTION ( 'NONE',  ( 0.0000000000000000000, 0.0000000000000000000, 1.000000000000000000 ) ) ;
#16 = CARTESIAN_POINT ( 'NONE',  ( 0.0000000000000000000, 0.0000000000000000000, 0.0000000000000000000 ) ) ;
#17 = PLANE ( 'NONE',  #169 ) ;
#18 = AXIS2_PLACEMENT_3D ( 'NONE', #39, #98, #112 ) ;
#19 = ADVANCED_FACE ( 'NONE', ( #75, #302 ), #17, .F. ) ;
#20 = SURFACE_SIDE_STYLE ('',( #114 ) ) ;
#21 = CARTESIAN_POINT ( 'NONE',  ( -83.64343891910036200, -15.12531407233359800, 0.0000000000000000000 ) ) ;
#22 = CARTESIAN_POINT ( 'NONE',  ( -83.64343891910033300, -15.12531407233359500, 12.00000000000000000 ) ) ;
#23 = PRODUCT ( 'TripodTopBase', 'TripodTopBase', '', ( #264 ) ) ;
#24 = STYLED_ITEM ( 'NONE', ( #346 ), #61 ) ;
#25 = UNCERTAINTY_MEASURE_WITH_UNIT (LENGTH_MEASURE( 1.000000000000000100E-005 ), #232, 'distance_accuracy_value', 'NONE');
#26 = AXIS2_PLACEMENT_3D ( 'NONE', #44, #37, #32 ) ;
#27 = EDGE_CURVE ( 'NONE', #377, #265, #173, .T. ) ;
#28 = DIRECTION ( 'NONE',  ( 0.0000000000000000000, 0.0000000000000000000, 1.000000000000000000 ) ) ;
#29 = CARTESIAN_POINT ( 'NONE',  ( 0.0000000000000000000, 0.0000000000000000000, 12.00000000000000000 ) ) ;
#30 = CARTESIAN_POINT ( 'NONE',  ( 0.0000000000000000000, 0.0000000000000000000, 12.00000000000000000 ) ) ;
#31 = DIRECTION ( 'NONE',  ( 1.000000000000000000, 0.0000000000000000000, 0.0000000000000000000 ) ) ;
#32 = DIRECTION ( 'NONE',  ( -0.4999999999999919000, 0.8660254037844432600, 0.0000000000000000000 ) ) ;
#33 = CARTESIAN_POINT ( 'NONE',  ( 0.0000000000000000000, 0.0000000000000000000, 0.0000000000000000000 ) ) ;
#34 =( LENGTH_UNIT ( ) NAMED_UNIT ( * ) SI_UNIT ( .MILLI., .METRE. ) );
#35 = EDGE_CURVE ( 'NONE', #272, #195, #335, .T. ) ;
#36 = CARTESIAN_POINT ( 'NONE',  ( 0.0000000000000000000, 0.0000000000000000000, 12.00000000000000000 ) ) ;
#37 = DIRECTION ( 'NONE',  ( 0.8660254037844433700, 0.4999999999999919500, 0.0000000000000000000 ) ) ;
#38 = EDGE_CURVE ( 'NONE', #189, #14, #325, .T. ) ;
#39 = CARTESIAN_POINT ( 'NONE',  ( 0.0000000000000000000, 0.0000000000000000000, 12.00000000000000000 ) ) ;
#40 = PLANE ( 'NONE',  #283 ) ;
#41 = EDGE_CURVE ( 'NONE', #149, #189, #180, .T. ) ;
#42 = CARTESIAN_POINT ( 'NONE',  ( -28.72281323269023900, 79.99999999999998600, 0.0000000000000000000 ) ) ;
#43 = APPLICATION_PROTOCOL_DEFINITION ( 'draft international standard', 'automotive_design', 1998, #340 ) ;
#44 = CARTESIAN_POINT ( 'NONE',  ( -54.92062568641053800, -64.87468592766509800, -0.0009999999999992653700 ) ) ;
#45 = ADVANCED_FACE ( 'NONE', ( #198 ), #224, .F. ) ;
#46 = DIRECTION ( 'NONE',  ( -1.000000000000000000, 0.0000000000000000000, 0.0000000000000000000 ) ) ;
#47 = DIRECTION ( 'NONE',  ( 0.0000000000000000000, 0.0000000000000000000, 1.000000000000000000 ) ) ;
#48 = CARTESIAN_POINT ( 'NONE',  ( -54.92062568641053800, -64.87468592766509800, 12.00000000000000000 ) ) ;
#49 = DIRECTION ( 'NONE',  ( 1.000000000000000000, 0.0000000000000000000, 0.0000000000000000000 ) ) ;
#50 = EDGE_CURVE ( 'NONE', #212, #363, #194, .T. ) ;
#51 = EDGE_LOOP ( 'NONE', ( #284, #170, #382, #242 ) ) ;
#52 = EDGE_CURVE ( 'NONE', #271, #164, #341, .T. ) ;
#53 = DIRECTION ( 'NONE',  ( -1.000000000000000000, 0.0000000000000000000, 0.0000000000000000000 ) ) ;
#54 = EDGE_CURVE ( 'NONE', #189, #217, #199, .T. ) ;
#55 = CARTESIAN_POINT ( 'NONE',  ( -83.64343891910036200, -15.12531407233359800, -0.0009999999999992653700 ) ) ;
#56 = DIRECTION ( 'NONE',  ( 1.000000000000000000, 0.0000000000000000000, 0.0000000000000000000 ) ) ;
#57 = EDGE_CURVE ( 'NONE', #336, #162, #203, .T. ) ;
#58 = CARTESIAN_POINT ( 'NONE',  ( 0.0000000000000000000, 0.0000000000000000000, 12.00000000000000000 ) ) ;
#59 = PLANE ( 'NONE',  #309 ) ;
#60 = EDGE_CURVE ( 'NONE', #265, #377, #104, .T. ) ;
#61 = MANIFOLD_SOLID_BREP ( 'CirPattern1', #95 ) ;
#62 = DIRECTION ( 'NONE',  ( 0.0000000000000000000, -0.0000000000000000000, 1.000000000000000000 ) ) ;
#63 = CARTESIAN_POINT ( 'NONE',  ( 28.72281323269028200, 79.99999999999998600, -0.0009999999999992653700 ) ) ;
#64 = EDGE_LOOP ( 'NONE', ( #228, #215, #329, #238 ) ) ;
#65 = CARTESIAN_POINT ( 'NONE',  ( -3.000000000000000400, 0.0000000000000000000, 12.00000000000000000 ) ) ;
#66 = FACE_BOUND ( 'NONE', #225, .T. ) ;
#67 = CYLINDRICAL_SURFACE ( 'NONE', #319, 85.00000000000001400 ) ;
#68 = CARTESIAN_POINT ( 'NONE',  ( -3.000000000000000400, 0.0000000000000000000, 12.00000000000000000 ) ) ;
#69 = VECTOR ( 'NONE', #62, 1000.000000000000000 ) ;
#70 = ORIENTED_EDGE ( 'NONE', *, *, #50, .F. ) ;
#71 = DIRECTION ( 'NONE',  ( 1.000000000000000000, 0.0000000000000000000, 0.0000000000000000000 ) ) ;
#72 = CARTESIAN_POINT ( 'NONE',  ( -54.92062568641053800, -64.87468592766509800, 0.0000000000000000000 ) ) ;
#73 = CARTESIAN_POINT ( 'NONE',  ( 0.0000000000000000000, 0.0000000000000000000, 0.0000000000000000000 ) ) ;
#74 = DIRECTION ( 'NONE',  ( 0.0000000000000000000, 0.0000000000000000000, 1.000000000000000000 ) ) ;
#75 = FACE_OUTER_BOUND ( 'NONE', #218, .T. ) ;
#76 = CYLINDRICAL_SURFACE ( 'NONE', #321, 3.000000000000000400 ) ;
#77 = DIRECTION ( 'NONE',  ( -0.0000000000000000000, -0.0000000000000000000, -1.000000000000000000 ) ) ;
#78 = FACE_OUTER_BOUND ( 'NONE', #204, .T. ) ;
#79 = CARTESIAN_POINT ( 'NONE',  ( 0.0000000000000000000, 0.0000000000000000000, 0.0000000000000000000 ) ) ;
#80 = UNCERTAINTY_MEASURE_WITH_UNIT (LENGTH_MEASURE( 1.000000000000000100E-005 ), #34, 'distance_accuracy_value', 'NONE');
#81 = CARTESIAN_POINT ( 'NONE',  ( 0.0000000000000000000, 0.0000000000000000000, 12.00000000000000000 ) ) ;
#82 = CARTESIAN_POINT ( 'NONE',  ( 28.72281323269027800, 79.99999999999997200, 12.00000000000000000 ) ) ;
#83 = ORIENTED_EDGE ( 'NONE', *, *, #380, .T. ) ;
#84 = CARTESIAN_POINT ( 'NONE',  ( 0.0000000000000000000, 0.0000000000000000000, 0.0000000000000000000 ) ) ;
#85 = DIRECTION ( 'NONE',  ( 0.0000000000000000000, 0.0000000000000000000, 1.000000000000000000 ) ) ;
#86 = DIRECTION ( 'NONE',  ( -0.4999999999999919500, 0.8660254037844432600, 0.0000000000000000000 ) ) ;
#87 = ORIENTED_EDGE ( 'NONE', *, *, #7, .F. ) ;
#88 = CARTESIAN_POINT ( 'NONE',  ( -28.72281323269028200, 79.99999999999998600, -0.0009999999999992653700 ) ) ;
#89 = SURFACE_STYLE_USAGE ( .BOTH. , #20 ) ;
#90 = AXIS2_PLACEMENT_3D ( 'NONE', #16, #323, #254 ) ;
#91 = LINE ( 'NONE', #210, #296 ) ;
#92 = ADVANCED_FACE ( 'NONE', ( #286 ), #76, .F. ) ;
#93 = LINE ( 'NONE', #155, #279 ) ;
#94 = VECTOR ( 'NONE', #247, 1000.000000000000000 ) ;
#95 = CLOSED_SHELL ( 'NONE', ( #262, #266, #110, #304, #144, #19, #166, #92, #332, #5, #45 ) ) ;
#96 = ORIENTED_EDGE ( 'NONE', *, *, #301, .T. ) ;
#97 = CARTESIAN_POINT ( 'NONE',  ( 3.000000000000000400, 3.673940397442060400E-016, 0.0000000000000000000 ) ) ;
#98 = DIRECTION ( 'NONE',  ( 0.0000000000000000000, 0.0000000000000000000, 1.000000000000000000 ) ) ;
#99 = CARTESIAN_POINT ( 'NONE',  ( 0.0000000000000000000, 0.0000000000000000000, 12.00000000000000000 ) ) ;
#100 = DIRECTION ( 'NONE',  ( -0.0000000000000000000, -0.0000000000000000000, -1.000000000000000000 ) ) ;
#101 = CARTESIAN_POINT ( 'NONE',  ( 54.92062568640962900, -64.87468592766585100, 12.00000000000000000 ) ) ;
#102 = CARTESIAN_POINT ( 'NONE',  ( -3.000000000000000400, 0.0000000000000000000, 0.0000000000000000000 ) ) ;
#103 = DIRECTION ( 'NONE',  ( -1.000000000000000000, 0.0000000000000000000, 0.0000000000000000000 ) ) ;
#104 = CIRCLE ( 'NONE', #18, 3.000000000000000400 ) ;
#105 = CARTESIAN_POINT ( 'NONE',  ( 83.64343891910017700, -15.12531407233476300, 12.00000000000000000 ) ) ;
#106 = SHAPE_DEFINITION_REPRESENTATION ( #349, #371 ) ;
#107 = DIRECTION ( 'NONE',  ( 0.0000000000000000000, 0.0000000000000000000, 1.000000000000000000 ) ) ;
#108 = DIRECTION ( 'NONE',  ( 1.000000000000000000, 0.0000000000000000000, 0.0000000000000000000 ) ) ;
#109 = CARTESIAN_POINT ( 'NONE',  ( -54.92062568641055300, -64.87468592766508400, 0.0000000000000000000 ) ) ;
#110 = ADVANCED_FACE ( 'NONE', ( #297 ), #67, .T. ) ;
#111 = CARTESIAN_POINT ( 'NONE',  ( 0.0000000000000000000, 0.0000000000000000000, 12.00000000000000000 ) ) ;
#112 = DIRECTION ( 'NONE',  ( 1.000000000000000000, 0.0000000000000000000, 0.0000000000000000000 ) ) ;
#113 = PRESENTATION_STYLE_ASSIGNMENT (( #89 ) ) ;
#114 = SURFACE_STYLE_FILL_AREA ( #298 ) ;
#115 = COLOUR_RGB ( '',1.000000000000000000, 1.000000000000000000, 1.000000000000000000 ) ;
#116 = SURFACE_SIDE_STYLE ('',( #197 ) ) ;
#117 = EDGE_LOOP ( 'NONE', ( #233, #331 ) ) ;
#118 = DIRECTION ( 'NONE',  ( -0.8660254037844363800, 0.5000000000000040000, 0.0000000000000000000 ) ) ;
#119 = DIRECTION ( 'NONE',  ( -1.000000000000000000, 0.0000000000000000000, 0.0000000000000000000 ) ) ;
#120 = CARTESIAN_POINT ( 'NONE',  ( -85.00000000000001400, 0.0000000000000000000, 0.0000000000000000000 ) ) ;
#121 = CARTESIAN_POINT ( 'NONE',  ( 3.000000000000000400, 3.673940397442060400E-016, 12.00000000000000000 ) ) ;
#122 = CIRCLE ( 'NONE', #275, 85.00000000000001400 ) ;
#123 = VECTOR ( 'NONE', #293, 1000.000000000000000 ) ;
#124 = DIRECTION ( 'NONE',  ( 0.0000000000000000000, -1.000000000000000000, 0.0000000000000000000 ) ) ;
#125 = LINE ( 'NONE', #234, #123 ) ;
#126 = LINE ( 'NONE', #328, #137 ) ;
#127 =( LENGTH_UNIT ( ) NAMED_UNIT ( * ) SI_UNIT ( .MILLI., .METRE. ) );
#128 = VECTOR ( 'NONE', #9, 1000.000000000000000 ) ;
#129 = LINE ( 'NONE', #121, #128 ) ;
#130 = VECTOR ( 'NONE', #100, 1000.000000000000000 ) ;
#131 = LINE ( 'NONE', #68, #130 ) ;
#132 = CIRCLE ( 'NONE', #280, 3.000000000000000400 ) ;
#133 = VECTOR ( 'NONE', #185, 1000.000000000000000 ) ;
#134 = CIRCLE ( 'NONE', #307, 85.00000000000001400 ) ;
#135 = DIRECTION ( 'NONE',  ( -1.000000000000000000, 0.0000000000000000000, 0.0000000000000000000 ) ) ;
#136 = CYLINDRICAL_SURFACE ( 'NONE', #285, 85.00000000000001400 ) ;
#137 = VECTOR ( 'NONE', #310, 1000.000000000000000 ) ;
#138 = LINE ( 'NONE', #191, #133 ) ;
#139 = CIRCLE ( 'NONE', #277, 85.00000000000001400 ) ;
#140 = CYLINDRICAL_SURFACE ( 'NONE', #289, 85.00000000000001400 ) ;
#141 = AXIS2_PLACEMENT_3D ( 'NONE', #79, #361, #71 ) ;
#142 = CARTESIAN_POINT ( 'NONE',  ( 0.0000000000000000000, 0.0000000000000000000, 12.00000000000000000 ) ) ;
#143 = FACE_OUTER_BOUND ( 'NONE', #324, .T. ) ;
#144 = ADVANCED_FACE ( 'NONE', ( #78, #66 ), #59, .T. ) ;
#145 = CYLINDRICAL_SURFACE ( 'NONE', #303, 3.000000000000000400 ) ;
#146 = FACE_OUTER_BOUND ( 'NONE', #220, .T. ) ;
#147 = DIRECTION ( 'NONE',  ( -0.0000000000000000000, -0.0000000000000000000, -1.000000000000000000 ) ) ;
#148 = CYLINDRICAL_SURFACE ( 'NONE', #306, 85.00000000000001400 ) ;
#149 = VERTEX_POINT ( 'NONE', #151 ) ;
#150 = CARTESIAN_POINT ( 'NONE',  ( 0.0000000000000000000, 0.0000000000000000000, 0.0000000000000000000 ) ) ;
#151 = CARTESIAN_POINT ( 'NONE',  ( 28.72281323269028200, 79.99999999999998600, 0.0000000000000000000 ) ) ;
#152 = ORIENTED_EDGE ( 'NONE', *, *, #6, .T. ) ;
#153 = CARTESIAN_POINT ( 'NONE',  ( 0.0000000000000000000, 0.0000000000000000000, 12.00000000000000000 ) ) ;
#154 = EDGE_CURVE ( 'NONE', #195, #212, #159, .T. ) ;
#155 = CARTESIAN_POINT ( 'NONE',  ( 83.64343891910017700, -15.12531407233476300, -0.0009999999999992653700 ) ) ;
#156 = DIRECTION ( 'NONE',  ( -0.0000000000000000000, -0.0000000000000000000, -1.000000000000000000 ) ) ;
#157 = APPLICATION_PROTOCOL_DEFINITION ( 'draft international standard', 'automotive_design', 1998, #288 ) ;
#158 = DIRECTION ( 'NONE',  ( 0.0000000000000000000, 0.0000000000000000000, 1.000000000000000000 ) ) ;
#159 = CIRCLE ( 'NONE', #322, 85.00000000000001400 ) ;
#160 = DIRECTION ( 'NONE',  ( 0.5000000000000040000, 0.8660254037844363800, 0.0000000000000000000 ) ) ;
#161 = EDGE_LOOP ( 'NONE', ( #313, #227, #168, #294 ) ) ;
#162 = VERTEX_POINT ( 'NONE', #101 ) ;
#163 = ORIENTED_EDGE ( 'NONE', *, *, #60, .F. ) ;
#164 = VERTEX_POINT ( 'NONE', #102 ) ;
#165 = CARTESIAN_POINT ( 'NONE',  ( 0.0000000000000000000, 0.0000000000000000000, 0.0000000000000000000 ) ) ;
#166 = ADVANCED_FACE ( 'NONE', ( #184 ), #148, .T. ) ;
#167 = ORIENTED_EDGE ( 'NONE', *, *, #38, .F. ) ;
#168 = ORIENTED_EDGE ( 'NONE', *, *, #57, .T. ) ;
#169 = AXIS2_PLACEMENT_3D ( 'NONE', #165, #158, #366 ) ;
#170 = ORIENTED_EDGE ( 'NONE', *, *, #353, .F. ) ;
#171 = LINE ( 'NONE', #63, #94 ) ;
#172 = CARTESIAN_POINT ( 'NONE',  ( 83.64343891910012000, -15.12531407233489000, 0.0000000000000000000 ) ) ;
#173 = CIRCLE ( 'NONE', #344, 3.000000000000000400 ) ;
#174 = FACE_OUTER_BOUND ( 'NONE', #161, .T. ) ;
#175 =( NAMED_UNIT ( * ) SI_UNIT ( $, .STERADIAN. ) SOLID_ANGLE_UNIT ( ) );
#176 = ORIENTED_EDGE ( 'NONE', *, *, #35, .T. ) ;
#177 = ORIENTED_EDGE ( 'NONE', *, *, #375, .T. ) ;
#178 = CARTESIAN_POINT ( 'NONE',  ( -54.92062568641053800, -64.87468592766509800, 12.00000000000000000 ) ) ;
#179 = ORIENTED_EDGE ( 'NONE', *, *, #380, .F. ) ;
#180 = LINE ( 'NONE', #311, #209 ) ;
#181 = VECTOR ( 'NONE', #308, 999.9999999999998900 ) ;
#182 = EDGE_LOOP ( 'NONE', ( #252, #207, #327, #318 ) ) ;
#183 = CARTESIAN_POINT ( 'NONE',  ( 0.0000000000000000000, 0.0000000000000000000, 12.00000000000000000 ) ) ;
#184 = FACE_OUTER_BOUND ( 'NONE', #182, .T. ) ;
#185 = DIRECTION ( 'NONE',  ( 0.0000000000000000000, -0.0000000000000000000, 1.000000000000000000 ) ) ;
#186 = ORIENTED_EDGE ( 'NONE', *, *, #367, .F. ) ;
#187 = ORIENTED_EDGE ( 'NONE', *, *, #12, .F. ) ;
#188 = SURFACE_STYLE_USAGE ( .BOTH. , #116 ) ;
#189 = VERTEX_POINT ( 'NONE', #42 ) ;
#190 = DIRECTION ( 'NONE',  ( 1.000000000000000000, 0.0000000000000000000, 0.0000000000000000000 ) ) ;
#191 = CARTESIAN_POINT ( 'NONE',  ( -54.92062568641053800, -64.87468592766509800, -0.0009999999999992653700 ) ) ;
#192 = ORIENTED_EDGE ( 'NONE', *, *, #41, .T. ) ;
#193 = CIRCLE ( 'NONE', #348, 85.00000000000001400 ) ;
#194 = LINE ( 'NONE', #3, #281 ) ;
#195 = VERTEX_POINT ( 'NONE', #109 ) ;
#196 = DIRECTION ( 'NONE',  ( 1.000000000000000000, 0.0000000000000000000, 0.0000000000000000000 ) ) ;
#197 = SURFACE_STYLE_FILL_AREA ( #1 ) ;
#198 = FACE_OUTER_BOUND ( 'NONE', #211, .T. ) ;
#199 = LINE ( 'NONE', #88, #292 ) ;
#200 = FILL_AREA_STYLE_COLOUR ( '', #115 ) ;
#201 = COLOUR_RGB ( '',1.000000000000000000, 1.000000000000000000, 1.000000000000000000 ) ;
#202 = VECTOR ( 'NONE', #86, 1000.000000000000100 ) ;
#203 = LINE ( 'NONE', #337, #291 ) ;
#204 = EDGE_LOOP ( 'NONE', ( #205, #231, #334, #255, #187, #320, #177 ) ) ;
#205 = ORIENTED_EDGE ( 'NONE', *, *, #8, .F. ) ;
#206 = DIRECTION ( 'NONE',  ( 1.000000000000000000, 0.0000000000000000000, 0.0000000000000000000 ) ) ;
#207 = ORIENTED_EDGE ( 'NONE', *, *, #13, .F. ) ;
#208 = CIRCLE ( 'NONE', #356, 85.00000000000001400 ) ;
#209 = VECTOR ( 'NONE', #119, 1000.000000000000000 ) ;
#210 = CARTESIAN_POINT ( 'NONE',  ( -28.72281323269028200, 79.99999999999998600, 12.00000000000000000 ) ) ;
#211 = EDGE_LOOP ( 'NONE', ( #176, #241, #229, #235 ) ) ;
#212 = VERTEX_POINT ( 'NONE', #299 ) ;
#213 = ORIENTED_EDGE ( 'NONE', *, *, #4, .F. ) ;
#214 = PRODUCT_RELATED_PRODUCT_CATEGORY ( 'part', '', ( #23 ) ) ;
#215 = ORIENTED_EDGE ( 'NONE', *, *, #27, .T. ) ;
#216 = PRODUCT_DEFINITION_FORMATION_WITH_SPECIFIED_SOURCE ( 'ANY', '', #23, .NOT_KNOWN. ) ;
#217 = VERTEX_POINT ( 'NONE', #357 ) ;
#218 = EDGE_LOOP ( 'NONE', ( #364, #317, #179, #167, #295, #243, #70 ) ) ;
#219 = PRODUCT_DEFINITION ( 'UNKNOWN', '', #216, #11 ) ;
#220 = EDGE_LOOP ( 'NONE', ( #192, #362, #249, #87 ) ) ;
#221 = ORIENTED_EDGE ( 'NONE', *, *, #370, .F. ) ;
#222 = VERTEX_POINT ( 'NONE', #178 ) ;
#223 = AXIS2_PLACEMENT_3D ( 'NONE', #84, #107, #190 ) ;
#224 = PLANE ( 'NONE',  #26 ) ;
#225 = EDGE_LOOP ( 'NONE', ( #163, #248 ) ) ;
#226 = ORIENTED_EDGE ( 'NONE', *, *, #2, .F. ) ;
#227 = ORIENTED_EDGE ( 'NONE', *, *, #4, .T. ) ;
#228 = ORIENTED_EDGE ( 'NONE', *, *, #373, .F. ) ;
#229 = ORIENTED_EDGE ( 'NONE', *, *, #8, .T. ) ;
#230 = DIRECTION ( 'NONE',  ( 0.0000000000000000000, 0.0000000000000000000, 1.000000000000000000 ) ) ;
#231 = ORIENTED_EDGE ( 'NONE', *, *, #354, .T. ) ;
#232 =( LENGTH_UNIT ( ) NAMED_UNIT ( * ) SI_UNIT ( .MILLI., .METRE. ) );
#233 = ORIENTED_EDGE ( 'NONE', *, *, #370, .T. ) ;
#234 = CARTESIAN_POINT ( 'NONE',  ( -85.00000000000001400, 0.0000000000000000000, 12.00000000000000000 ) ) ;
#235 = ORIENTED_EDGE ( 'NONE', *, *, #301, .F. ) ;
#236 = DIRECTION ( 'NONE',  ( -0.5000000000000040000, -0.8660254037844363800, 0.0000000000000000000 ) ) ;
#237 = ORIENTED_EDGE ( 'NONE', *, *, #373, .T. ) ;
#238 = ORIENTED_EDGE ( 'NONE', *, *, #52, .F. ) ;
#239 = VERTEX_POINT ( 'NONE', #82 ) ;
#240 = DIRECTION ( 'NONE',  ( -0.0000000000000000000, -0.0000000000000000000, -1.000000000000000000 ) ) ;
#241 = ORIENTED_EDGE ( 'NONE', *, *, #353, .T. ) ;
#242 = ORIENTED_EDGE ( 'NONE', *, *, #379, .T. ) ;
#243 = ORIENTED_EDGE ( 'NONE', *, *, #6, .F. ) ;
#244 = DIRECTION ( 'NONE',  ( -0.0000000000000000000, -0.0000000000000000000, -1.000000000000000000 ) ) ;
#245 =( GEOMETRIC_REPRESENTATION_CONTEXT ( 3 ) GLOBAL_UNCERTAINTY_ASSIGNED_CONTEXT ( ( #80 ) ) GLOBAL_UNIT_ASSIGNED_CONTEXT ( ( #34, #369, #175 ) ) REPRESENTATION_CONTEXT ( 'NONE', 'WORKASPACE' ) );
#246 = MECHANICAL_DESIGN_GEOMETRIC_PRESENTATION_REPRESENTATION (  '', ( #256 ), #245 ) ;
#247 = DIRECTION ( 'NONE',  ( -0.0000000000000000000, -0.0000000000000000000, 1.000000000000000000 ) ) ;
#248 = ORIENTED_EDGE ( 'NONE', *, *, #27, .F. ) ;
#249 = ORIENTED_EDGE ( 'NONE', *, *, #12, .T. ) ;
#250 = VERTEX_POINT ( 'NONE', #10 ) ;
#251 = ORIENTED_EDGE ( 'NONE', *, *, #378, .T. ) ;
#252 = ORIENTED_EDGE ( 'NONE', *, *, #378, .F. ) ;
#253 = PRESENTATION_LAYER_ASSIGNMENT (  '', '', ( #256 ) ) ;
#254 = DIRECTION ( 'NONE',  ( 1.000000000000000000, 0.0000000000000000000, 0.0000000000000000000 ) ) ;
#255 = ORIENTED_EDGE ( 'NONE', *, *, #2, .T. ) ;
#256 = STYLED_ITEM ( 'NONE', ( #113 ), #371 ) ;
#257 = DIRECTION ( 'NONE',  ( -1.000000000000000000, 0.0000000000000000000, 0.0000000000000000000 ) ) ;
#258 = ORIENTED_EDGE ( 'NONE', *, *, #7, .T. ) ;
#259 = CARTESIAN_POINT ( 'NONE',  ( 83.64343891910017700, -15.12531407233476300, -0.0009999999999992653700 ) ) ;
#260 = VERTEX_POINT ( 'NONE', #22 ) ;
#261 = DIRECTION ( 'NONE',  ( 0.0000000000000000000, -0.0000000000000000000, -1.000000000000000000 ) ) ;
#262 = ADVANCED_FACE ( 'NONE', ( #381 ), #145, .F. ) ;
#263 = DIRECTION ( 'NONE',  ( 1.000000000000000000, 0.0000000000000000000, -0.0000000000000000000 ) ) ;
#264 = PRODUCT_CONTEXT ( 'NONE', #340, 'mechanical' ) ;
#265 = VERTEX_POINT ( 'NONE', #65 ) ;
#266 = ADVANCED_FACE ( 'NONE', ( #143 ), #140, .T. ) ;
#267 = LINE ( 'NONE', #55, #69 ) ;
#268 = DIRECTION ( 'NONE',  ( 0.0000000000000000000, 0.0000000000000000000, 1.000000000000000000 ) ) ;
#269 = EDGE_LOOP ( 'NONE', ( #316, #237, #221, #186 ) ) ;
#270 = FACE_OUTER_BOUND ( 'NONE', #345, .T. ) ;
#271 = VERTEX_POINT ( 'NONE', #97 ) ;
#272 = VERTEX_POINT ( 'NONE', #21 ) ;
#273 =( GEOMETRIC_REPRESENTATION_CONTEXT ( 3 ) GLOBAL_UNCERTAINTY_ASSIGNED_CONTEXT ( ( #25 ) ) GLOBAL_UNIT_ASSIGNED_CONTEXT ( ( #232, #276, #338 ) ) REPRESENTATION_CONTEXT ( 'NONE', 'WORKASPACE' ) );
#274 = DIRECTION ( 'NONE',  ( 1.000000000000000000, 0.0000000000000000000, 0.0000000000000000000 ) ) ;
#275 = AXIS2_PLACEMENT_3D ( 'NONE', #278, #268, #49 ) ;
#276 =( NAMED_UNIT ( * ) PLANE_ANGLE_UNIT ( ) SI_UNIT ( $, .RADIAN. ) );
#277 = AXIS2_PLACEMENT_3D ( 'NONE', #30, #350, #359 ) ;
#278 = CARTESIAN_POINT ( 'NONE',  ( 0.0000000000000000000, 0.0000000000000000000, 0.0000000000000000000 ) ) ;
#279 = VECTOR ( 'NONE', #360, 1000.000000000000000 ) ;
#280 = AXIS2_PLACEMENT_3D ( 'NONE', #73, #28, #206 ) ;
#281 = VECTOR ( 'NONE', #160, 999.9999999999998900 ) ;
#282 = CIRCLE ( 'NONE', #365, 85.00000000000001400 ) ;
#283 = AXIS2_PLACEMENT_3D ( 'NONE', #374, #124, #261 ) ;
#284 = ORIENTED_EDGE ( 'NONE', *, *, #354, .F. ) ;
#285 = AXIS2_PLACEMENT_3D ( 'NONE', #111, #240, #53 ) ;
#286 = FACE_OUTER_BOUND ( 'NONE', #64, .T. ) ;
#287 =( NAMED_UNIT ( * ) PLANE_ANGLE_UNIT ( ) SI_UNIT ( $, .RADIAN. ) );
#288 = APPLICATION_CONTEXT ( 'automotive_design' ) ;
#289 = AXIS2_PLACEMENT_3D ( 'NONE', #372, #147, #46 ) ;
#290 = DIRECTION ( 'NONE',  ( -0.5000000000000040000, -0.8660254037844363800, 0.0000000000000000000 ) ) ;
#291 = VECTOR ( 'NONE', #236, 999.9999999999998900 ) ;
#292 = VECTOR ( 'NONE', #358, 1000.000000000000000 ) ;
#293 = DIRECTION ( 'NONE',  ( -0.0000000000000000000, -0.0000000000000000000, -1.000000000000000000 ) ) ;
#294 = ORIENTED_EDGE ( 'NONE', *, *, #379, .F. ) ;
#295 = ORIENTED_EDGE ( 'NONE', *, *, #41, .F. ) ;
#296 = VECTOR ( 'NONE', #56, 1000.000000000000000 ) ;
#297 = FACE_OUTER_BOUND ( 'NONE', #51, .T. ) ;
#298 = FILL_AREA_STYLE ('',( #200 ) ) ;
#299 = CARTESIAN_POINT ( 'NONE',  ( 54.92062568640965000, -64.87468592766588000, 0.0000000000000000000 ) ) ;
#300 = LINE ( 'NONE', #48, #202 ) ;
#301 = EDGE_CURVE ( 'NONE', #272, #260, #267, .T. ) ;
#302 = FACE_BOUND ( 'NONE', #117, .T. ) ;
#303 = AXIS2_PLACEMENT_3D ( 'NONE', #183, #156, #135 ) ;
#304 = ADVANCED_FACE ( 'NONE', ( #270 ), #136, .T. ) ;
#305 = CARTESIAN_POINT ( 'NONE',  ( 3.000000000000000400, 3.673940397442060400E-016, 12.00000000000000000 ) ) ;
#306 = AXIS2_PLACEMENT_3D ( 'NONE', #142, #77, #314 ) ;
#307 = AXIS2_PLACEMENT_3D ( 'NONE', #81, #15, #376 ) ;
#308 = DIRECTION ( 'NONE',  ( 0.4999999999999919500, -0.8660254037844433700, 0.0000000000000000000 ) ) ;
#309 = AXIS2_PLACEMENT_3D ( 'NONE', #58, #368, #263 ) ;
#310 = DIRECTION ( 'NONE',  ( -0.0000000000000000000, 0.0000000000000000000, 1.000000000000000000 ) ) ;
#311 = CARTESIAN_POINT ( 'NONE',  ( -28.72281323269028200, 79.99999999999998600, 0.0000000000000000000 ) ) ;
#312 = ORIENTED_EDGE ( 'NONE', *, *, #375, .F. ) ;
#313 = ORIENTED_EDGE ( 'NONE', *, *, #50, .T. ) ;
#314 = DIRECTION ( 'NONE',  ( -1.000000000000000000, 0.0000000000000000000, 0.0000000000000000000 ) ) ;
#315 = CARTESIAN_POINT ( 'NONE',  ( 0.0000000000000000000, 0.0000000000000000000, 12.00000000000000000 ) ) ;
#316 = ORIENTED_EDGE ( 'NONE', *, *, #60, .T. ) ;
#317 = ORIENTED_EDGE ( 'NONE', *, *, #35, .F. ) ;
#318 = ORIENTED_EDGE ( 'NONE', *, *, #38, .T. ) ;
#319 = AXIS2_PLACEMENT_3D ( 'NONE', #29, #352, #257 ) ;
#320 = ORIENTED_EDGE ( 'NONE', *, *, #13, .T. ) ;
#321 = AXIS2_PLACEMENT_3D ( 'NONE', #153, #244, #103 ) ;
#322 = AXIS2_PLACEMENT_3D ( 'NONE', #33, #47, #31 ) ;
#323 = DIRECTION ( 'NONE',  ( 0.0000000000000000000, 0.0000000000000000000, 1.000000000000000000 ) ) ;
#324 = EDGE_LOOP ( 'NONE', ( #312, #251, #83, #96 ) ) ;
#325 = CIRCLE ( 'NONE', #141, 85.00000000000001400 ) ;
#326 = DIRECTION ( 'NONE',  ( 0.0000000000000000000, 0.0000000000000000000, 1.000000000000000000 ) ) ;
#327 = ORIENTED_EDGE ( 'NONE', *, *, #54, .F. ) ;
#328 = CARTESIAN_POINT ( 'NONE',  ( 54.92062568640965000, -64.87468592766588000, -0.0009999999999992653700 ) ) ;
#329 = ORIENTED_EDGE ( 'NONE', *, *, #367, .T. ) ;
#330 =( GEOMETRIC_REPRESENTATION_CONTEXT ( 3 ) GLOBAL_UNCERTAINTY_ASSIGNED_CONTEXT ( ( #355 ) ) GLOBAL_UNIT_ASSIGNED_CONTEXT ( ( #127, #287, #347 ) ) REPRESENTATION_CONTEXT ( 'NONE', 'WORKASPACE' ) );
#331 = ORIENTED_EDGE ( 'NONE', *, *, #52, .T. ) ;
#332 = ADVANCED_FACE ( 'NONE', ( #146 ), #40, .F. ) ;
#333 = MECHANICAL_DESIGN_GEOMETRIC_PRESENTATION_REPRESENTATION (  '', ( #24 ), #330 ) ;
#334 = ORIENTED_EDGE ( 'NONE', *, *, #57, .F. ) ;
#335 = LINE ( 'NONE', #72, #181 ) ;
#336 = VERTEX_POINT ( 'NONE', #105 ) ;
#337 = CARTESIAN_POINT ( 'NONE',  ( 83.64343891910017700, -15.12531407233476300, 12.00000000000000000 ) ) ;
#338 =( NAMED_UNIT ( * ) SI_UNIT ( $, .STERADIAN. ) SOLID_ANGLE_UNIT ( ) );
#339 = PRESENTATION_LAYER_ASSIGNMENT (  '', '', ( #24 ) ) ;
#340 = APPLICATION_CONTEXT ( 'automotive_design' ) ;
#341 = CIRCLE ( 'NONE', #90, 3.000000000000000400 ) ;
#342 = FILL_AREA_STYLE_COLOUR ( '', #201 ) ;
#343 = PLANE ( 'NONE',  #351 ) ;
#344 = AXIS2_PLACEMENT_3D ( 'NONE', #99, #230, #274 ) ;
#345 = EDGE_LOOP ( 'NONE', ( #226, #213, #152, #258 ) ) ;
#346 = PRESENTATION_STYLE_ASSIGNMENT (( #188 ) ) ;
#347 =( NAMED_UNIT ( * ) SI_UNIT ( $, .STERADIAN. ) SOLID_ANGLE_UNIT ( ) );
#348 = AXIS2_PLACEMENT_3D ( 'NONE', #36, #326, #196 ) ;
#349 = PRODUCT_DEFINITION_SHAPE ( 'NONE', 'NONE',  #219 ) ;
#350 = DIRECTION ( 'NONE',  ( 0.0000000000000000000, 0.0000000000000000000, 1.000000000000000000 ) ) ;
#351 = AXIS2_PLACEMENT_3D ( 'NONE', #259, #118, #290 ) ;
#352 = DIRECTION ( 'NONE',  ( -0.0000000000000000000, -0.0000000000000000000, -1.000000000000000000 ) ) ;
#353 = EDGE_CURVE ( 'NONE', #195, #222, #138, .T. ) ;
#354 = EDGE_CURVE ( 'NONE', #222, #162, #134, .T. ) ;
#355 = UNCERTAINTY_MEASURE_WITH_UNIT (LENGTH_MEASURE( 1.000000000000000100E-005 ), #127, 'distance_accuracy_value', 'NONE');
#356 = AXIS2_PLACEMENT_3D ( 'NONE', #150, #74, #383 ) ;
#357 = CARTESIAN_POINT ( 'NONE',  ( -28.72281323269028200, 79.99999999999998600, 12.00000000000000000 ) ) ;
#358 = DIRECTION ( 'NONE',  ( -0.0000000000000000000, -0.0000000000000000000, 1.000000000000000000 ) ) ;
#359 = DIRECTION ( 'NONE',  ( 1.000000000000000000, 0.0000000000000000000, 0.0000000000000000000 ) ) ;
#360 = DIRECTION ( 'NONE',  ( -0.0000000000000000000, 0.0000000000000000000, 1.000000000000000000 ) ) ;
#361 = DIRECTION ( 'NONE',  ( 0.0000000000000000000, 0.0000000000000000000, 1.000000000000000000 ) ) ;
#362 = ORIENTED_EDGE ( 'NONE', *, *, #54, .T. ) ;
#363 = VERTEX_POINT ( 'NONE', #172 ) ;
#364 = ORIENTED_EDGE ( 'NONE', *, *, #154, .F. ) ;
#365 = AXIS2_PLACEMENT_3D ( 'NONE', #315, #85, #108 ) ;
#366 = DIRECTION ( 'NONE',  ( 1.000000000000000000, 0.0000000000000000000, -0.0000000000000000000 ) ) ;
#367 = EDGE_CURVE ( 'NONE', #265, #164, #131, .T. ) ;
#368 = DIRECTION ( 'NONE',  ( 0.0000000000000000000, 0.0000000000000000000, 1.000000000000000000 ) ) ;
#369 =( NAMED_UNIT ( * ) PLANE_ANGLE_UNIT ( ) SI_UNIT ( $, .RADIAN. ) );
#370 = EDGE_CURVE ( 'NONE', #164, #271, #132, .T. ) ;
#371 = ADVANCED_BREP_SHAPE_REPRESENTATION ( 'TripodTopBase', ( #61, #223 ), #273 ) ;
#372 = CARTESIAN_POINT ( 'NONE',  ( 0.0000000000000000000, 0.0000000000000000000, 12.00000000000000000 ) ) ;
#373 = EDGE_CURVE ( 'NONE', #377, #271, #129, .T. ) ;
#374 = CARTESIAN_POINT ( 'NONE',  ( -28.72281323269028200, 79.99999999999998600, -0.0009999999999992653700 ) ) ;
#375 = EDGE_CURVE ( 'NONE', #250, #260, #139, .T. ) ;
#376 = DIRECTION ( 'NONE',  ( 1.000000000000000000, 0.0000000000000000000, 0.0000000000000000000 ) ) ;
#377 = VERTEX_POINT ( 'NONE', #305 ) ;
#378 = EDGE_CURVE ( 'NONE', #250, #14, #125, .T. ) ;
#379 = EDGE_CURVE ( 'NONE', #212, #162, #126, .T. ) ;
#380 = EDGE_CURVE ( 'NONE', #14, #272, #122, .T. ) ;
#381 = FACE_OUTER_BOUND ( 'NONE', #269, .T. ) ;
#382 = ORIENTED_EDGE ( 'NONE', *, *, #154, .T. ) ;
#383 = DIRECTION ( 'NONE',  ( 1.000000000000000000, 0.0000000000000000000, 0.0000000000000000000 ) ) ;
ENDSEC;
END-ISO-10303-21;
